вторник, 24 март 2015 г.

Специално ме помоли един приятел да я хвана тая, кючек е верно яка е ама аз не съм им привърженик и правя уговорката, че мразя маанета така, че крайните анадолски сола не съм ги хващал иначе ритъма е як, а текста кърти. На вашето внимание Бай Иван на дует Аполон.


https://www.youtube.com/watch?v=ZV-3sIAvyzI

Дует Аполон-Бай Иван

2/
E----------------------------------------------------------------
B-10---------5-5h6----6-5---5-5h6----6--------------------
G----9999-----------7-----------------7---------5s4---------
D---------------------------------------------77----------5-7
A---------------------------------------------------------------
E----------------------------------------------------------------

E-------------------------------6--------------
B-10---------5-5h6----6-5-----5------------
G-----9999----------7--------------2------2
D-----------------------------------------5---
A----------------------------------------------
E----------------------------------------------

Am                      Bb
Бай Иван e луд джигит,
Gm                    Bb     Am
той е много странен тип.

G---5-3-2
D-5-------
Am                       Bb
Вечно мисли за аванта,                                               

Gm                  Bb
обикаля със Трабанта.

B-------1-3
G-2-4-----

Bb
Преди време, той прибра
Gm                   Am
паметника на града.

B-55-33

Bb
Със фадромата на село
Gm                            Am
върши пак коварно дело.



Припев: (х2)
Bb
Тракторист, хулиган
Gm                Am
е комшията Иван.

E-00-----
B------33

Bb
Стар познат е в МВР-то,
Gm                     Am
с гражбите от ТКЗС-то.



Йо ... Йо ...



Бай Иван е много див,

щом открадне е щастлив,

няма съвест и морал,

даже кмета е обрал.

Седем пъти той пребира

помпите на язовира,

със фадромата голяма,

Бай Иван пощада няма.



Припев: (х2)



Йо ...

Аванта ... аванта, йо ...



Припев: (х4)

понеделник, 23 март 2015 г.

Песента за днес отново е ретро чалга този път е на Камелия песента и се казва-Няма шега или Яхабиби дано ви хареса. Без крайното соло на китарата е много тихо и бързо ми звучи няма как да чуя като хората.


Камелия-Няма шега

интро

E-------------------------------------------------------------
B------------5-5h6p5------5-----------------5h6p5-55-----
G-------7---------------7-----555-------7----------------7--
D-777----------------------------------8--------------------
A-------------------------------------------------------------
E-------------------------------------------------------------

E-------------5-------------------------------------------
B----------5-----8-6-6s8-555----------55-5h6p5-5----
G-------7----------------------------7------------------7
D-777-----------------------------8----------------------
A----------------------------------------------------------
E----------------------------------------------------------

Fm                            Eb
Промених вече десет адреса, 
C#                Eb       Fm
телефонния номер смених,

B-----6
G-55--

Fm                            Eb
но мъжът непознат с мерцедеса                                                
C#                Eb            Fm
непрестанно след мене върви.

E-431---1
B------4--

Ab                   Eb
Миг покой нямам аз, 
Cm                        Fm
телефонът звъни нощ и ден

E-431---1
B------4--

Ab                   Eb
и един мъжки глас 
Cm                           Fm
ми говори с арабски акцент:


E-431---1
B------4--

Припев:
Fm                            Eb           C#              Eb            Fm
Яха биби, яха биби, яха биби, яха биби, кажи само "да",

E-431---1
B------4--

Fm                           Eb             C#            Eb
яха биби, яха биби, яха биби, яха биби и твой е
Fm
света!

E-431---1
B------4--

Ще се возиш на сребърна яхта, ще живееш в
царски палат,
ще блестиш като слънце от злато, ако дойдеш със
мене в Багдад.

Миг покой нямам аз, телефонът звъни нощ и ден
и един мъжки глас ми говори с арабски акцент:

Fm
Няма, няма, няма, няма шега,
Eb                                         Cm       Fm
шеф петролен май е влюбен в мене сега!

Може някое друго момиче да си търси съпруг със пари,
но на мъж, който аз не обичам, и усмивка не давам дори!
Миг покой нямам аз, телефонът звъни нощ и ден и един
мъжки глас ми говори с арабски акцент.

петък, 20 март 2015 г.

Бая се озорвам и не е докрай все още но песента т.е микса е 10 мин и е  малко зор утре ще я довърша, или поне ще опитам да я довърша на вашето внимание първата част от мега микса от 90-те На Бургарската гара на въздесъщия Руси Русев!!! Силно се надявам да я оцените.

Почти съм я завършил остава последния куплет приятно свирене би трябвало още днес да довърша последния и да го кача пробвайте я доста яко става, но първо изслушайте поне 3-4 пъти песента да знаете мелодията помага при солата ако знаето как трябва да звучи горе-долу.

Готово народе цялата е готова, утре ще видим на какво ще се спра дали ще е чалга или международно наслука и лека нощ.

https://www.youtube.com/watch?v=5ZmOw7j4D6E

Руси Русев-На бурската гара  микс
соло1
E--------------------------------------------------------------------------------
B------------------------------------------------------3-------------------------
G-----------10s12-12-12-12-12-10---------5--------5-----3p2h3p2h3p2
D-888-7----------------------------------88-----------------------------------
A--------------------------------------------------------------------------------
E--------------------------------------------------------------------------------

E-----------------------------------------------------
B----------1-------------88-10-11-11p10p8-----
G------3-----3-2-0-2----------------------------10
D-77-------------------------------------------------
A-----------------------------------------------------
E------------------------------------------------------

E-6-5-3


E--------------------------------------------------------------------------------
B------------------------------------------------------3-------------------------
G-----------10s12-12-12-12-12-10---------5--------5-----3p2h3p2h3p2
D-888-7----------------------------------88-----------------------------------
A--------------------------------------------------------------------------------
E--------------------------------------------------------------------------------

E-----------------------------------------------------
B----------1-------------88-10-11-11p10p8-----
G------3-----3-2-0-2----------------------------10
D-77-------------------------------------------------
A-----------------------------------------------------
E------------------------------------------------------

E-3-1------------------------------
B------------1---------------------
G------3---------3-2--------------
D-----------------------3----5full
A-----------------------------------
E------------------------------------

Gm
На бургаската гара,                                                            
     

B-8-6-8-8s10-10s11

Bb
на сфетофара

E---6--8-8s10-8-6
B-6-----------------

Bb                     F
Ще те чакам във колата 

E----5-6-6s8-6-5
B-6---------------

F                       Gm
с чудна вафла серената

B-11-10-8-10-8------6 

2/
Gm
Ша та чакам, няма да та чакам
B-8-6-8

Bb
Ша та чакам, няма да та чакам
B-3-1-3

F
Ако кажеш, че съм лош
B-1--
G---2

F                            Gm
Ша та чакам цяла нощ
B-888-6-------8
G-----------7---


ша ша шат на патката главата
Бум шакала шакалака бум
Бум шакала шакалака бум
еее
-тука е същото като при първия куплет-
2/
Ах боже боже защо не може
Да си караме колите и да качваме жените
2/
Ша та качвам няма да та качвам
Ша та качвам няма да та качвам
Ако кажеш, че съм лош
Ша та свалям цяла нощ


шат шат на патката главата

Бум шакала шакалака бум
Бум шакала шакалака бум

2/
E----888---------------------------------------------
B-8-----------44-3-------------11-11-11-----------
G-----------------------5---10---------------77-5-3
D------------------------------------------------------
A ------------------------------------------------------
E-------------------------------------------------------

E------------88-6---------------------------------
B-----99------------9-9p8----------------1-1s3
G-------------------------------------3------------
D-6------------------------------5-----------------
A----------------------------------------------------
E-----------------------------------------------------

2/
Gm              Cm
Данче мама данче
Cm            Bb
Мамино фиданче
           Ab
Айде мама да та женим 
Gm
за едно русначе 

2/
Cm
Неща мамо неща 
Bb
Русначе да взема
Ab
Руското око мамо все към
Ab           Gm
Водката гледа 

2/
E----888---------------------------------------------
B-8-----------44-3-------------11-11-11-----------
G-----------------------5---10---------------77-5-3
D------------------------------------------------------
A ------------------------------------------------------
E-------------------------------------------------------

E------------88-6---------------------------------
B-----99------------9-9p8----------------1-1s3
G-------------------------------------3------------
D-6------------------------------5-----------------
A----------------------------------------------------
E-----------------------------------------------------

2/
Данче мама данче
Мамино фиданче
Айде мама да та женим 
за едно музиканче

2/
Искам мамо искам
Музиканче да взема
Музиканското око мамо 
Все по живота гледа

E----------------------------
B-3-------------------------
G----5-4--22-------2-2h4
D----------------5----------
A----------------------------
E-----------------------------

E---------------------
B-3------------------
G-----5-4-22-4-2-0
D---------------------
A---------------------
E---------------------

Три по три равно на девет
Шест по шест равно на 36

Три по три равно на девет
Шест по шест равно на мерцедес

E------------------------------------------------------------------------------------
B----3-3h4-4-4--3--------------33-3------------------------------------------33
G-5--------------------5---3-5---------5-3-------3-5-55-3-1-0--------1-3------
D-----------------------------------------------6----------------------5-------------
A-------------------------------------------------------------------------------------
E--------------------------------------------------------------------------------------

E----------------------------------------------------------------------------6-4-3-3h4p3
B----3-3h4-4-4--3--------------33-3---------------------------------------------------
G-5--------------------5---3-5---------5-3-------3-5-55-3-1-0-----------------------
D-----------------------------------------------6-----------------------------------------
A------------------------------------------------------------------------------------------
E------------------------------------------------------------------------------------------


2/
Gm                 Bb
Аз работих в транспорта 
Ab                 Gm
транспорта транспорта
E-6-4-3-3h4p3
2/ 
Cm               Ab
Да изкарам курорта

Защото
2/
Cm
Черно море много е добре
Bb
Слънце пече още по-добре
Ab
На морето дупка чаклака де
Gm
Черно море Анджела бей
E-6-4-3-3h4p3

E------------------------------------------------------------------------------------
B----3-3h4-4-4--3--------------33-3------------------------------------------33
G-5--------------------5---3-5---------5-3-------3-5-55-3-1-0--------1-3------
D-----------------------------------------------6----------------------5-------------
A-------------------------------------------------------------------------------------
E--------------------------------------------------------------------------------------

E----------------------------------------------------------------------------6-4-3-3h4p3
B----3-3h4-4-4--3--------------33-3---------------------------------------------------
G-5--------------------5---3-5---------5-3-------3-5-55-3-1-0-----------------------
D-----------------------------------------------6-----------------------------------------
A------------------------------------------------------------------------------------------
E------------------------------------------------------------------------------------------

2/
Gm
На жената ти кажи 
Ab            Gm
ти кажи ти кажи
2/
Ab
Твоя човек са удави
Gm
И въобще не го чакай бе

Защото
2/
Черно море много е добре
Слънце пече още по-добре
На морето дупка чаклака де
Черно море Анджела бей
2/

E------------------------------------
B----------------------------------2
G-------22-2h3p2-------2---------
D-3-5----------------5-------5----
A------------------------------------
E-------------------------------------

E-------------------------------------
B-------------------------------------
G-------22-2h3p2-------2----------
D-3-5----------------5-------5-2--5
A-------------------------------------
E--------------------------------------



2/
Cm                                Bb    F
Шикираки шикираки малиии
Cm                                Bb     F
Пари няма пари няма за цигари
2/
F
Мене ми се пие мене ми се пие
F                            Gm
Мене ми се пие малко балантайче
2/
Bb
Три ки ла шарани мене ми се яде 
Cm
Мали

Шикираки шикираки малиии
Пари няма пари няма за цигари
Шикираки шикираки малиии
Пари няма пари няма и за баби

E-----------------------------------------------
B------8-10-10-10s11-10-8-10-8--------8
G-10-------------------------------------10--
D----------------------------------------------
A----------------------------------------------
E----------------------------------------------

E---------------------------
B----6-88-8s10-8-6-8-6
G-9------------------------
D---------------------------
A---------------------------
E----------------------------

E--------------------------------------------------
B------8-10-10-10s11-10-8-10-8------------8
G-10-----------------------------------------10--
D--------------------------------------------------
A--------------------------------------------------
E---------------------------------------------------

E-8-10-5-6-3-5-1
B-------------------
G-------------------
D-------------------
A-------------------
E--------------------

2/
F                 C  Bb
Знае ли някой тук от вас
C                        Bb     F
Морските бани край Бургас
D                                Gm
Там има чехкини по мерак
C                        F
И Софиянки с дълъг крак
2/
Ходиме на Варна на Черно море
Царевицата да берем на Черно море

E-----------------------------------
B-------8-6------88-------8-6---
G-88---------8--------88------88
D-----------------------------------
A-----------------------------------
E------------------------------------

E----6------66----6----
B-8----9-8-----8----99
G------------------------
D------------------------
A------------------------
E------------------------

2/
На Черно море много е добре
На Черно море слънце пече

E-----------------------------------
B-------8-6------88-------8-6---
G-88---------8--------88------88
D-----------------------------------
A-----------------------------------
E------------------------------------

E----6------66----6----
B-8----9-8-----8----99
G------------------------
D------------------------
A------------------------
E------------------------

2/
G
Ако си поискам ша ле ми дадеш
D                          G
ша ле ми дадеш ша ле ми дадеш
2/
G
Една целувка за лека нощ
D                         G
Една целувка за цяла нощ

2/
Щом си паралия що да не ти дам
що да не ти дам що да не ти дам

2/
Една целувка за лека нощ
Една целувка за цяла нощ

E--------------------------------------------------
B--------------------------------------------------
G----2h3p2----------22-------------------------
D-5----------5--3-5------5-3-135-3-1-0-135-
A-------------------------------------------------
E--------------------------------------------------

четвъртък, 19 март 2015 г.

Малко твърде много сръбско вкарах напоследак и ще пусна няколко класически чалги от 90-те първата е песента на Джесика-Кожена пола, която е кавър на румънската Liviu Guta, Florin Peste, Mr Juve, Susanu Si Coatelino - Cand P











Джесика-Кожена пола
https://www.youtube.com/watch?v=C-Yyvji_mVs
интро
2/
E----------------------------------------------------------------------
B--------8------------------------------------------------------------
G-9999----9s11-11-11-11-9------------------------7s9-99-7-9
D---------------------------------------------4-4h5-----------------
A-------------------------------------5555---------------------------
E-----------------------------------------------------------------------

E-7-15-14


E----------------------------------------------------------------------
B--------8------------------------------------------------------------
G-9999----9s11-11-11-11-9------------------------7s9-99-7-9
D---------------------------------------------4-4h5-----------------
A-------------------------------------5555---------------------------
E-----------------------------------------------------------------------

E-7-15-14

E------------5p4
B----------------
G-4s6-4--------

C#m                                                  F#m           C#m
Няма спор, че си мъж страхотен, че си готин тип. 
C#m                                          B              C#m
Даже не и мисля да откажа - лесно ме нави. 
C#m                                                  F#m           C#m
Няма спор, че си мъж страхотен, че си готин тип. 
C#m                                          B              C#m
Даже не и мисля да откажа - лесно ме нави. 
G-6-4-2
      A                     B            Abm                C#m
(2) Само ти ме погледни, работата ще заспи.
     A                      B              A              C#m
    Нещо вътре в мен гори. Искаш го нали? 
B-9-9s12full

Пр:
C#m                   A                   B                                       C#m
 Кожена пола, тъмни очила, с черни жартиери ще те оплета. 
E-7-15-14

C#m                  A                    B                                     C#m
Кожена пола, тъмни очила, зная как да бъда огнена жена. 
E-7-15-14

solo
E----------------------------------
B---------------------7-555-4-2
G-----9-9-8-8h9----------------
D-6-------------------------------
A----------------------------------
E----------------------------------

E-----------------------------------
B---------------------7--555-4-2
G---------8888--------------------
D-6--4-----------------------------
A------------------------------------
E------------------------------------

(2) Зная ще стане нещо супер, я не се плаши. 
     И не отлагай ти за утре, днес го направи. 

(2) Само ти ме погледни, работата ще върви.
     Нещо вътре в мен гори. Искаш го нали?
 Припев:/х4

сряда, 18 март 2015 г.

Ето обещаната песен малко по-рано от обещания час дано ви хареса , но е без крайното соло много на маане ми бие то твърде много "пресолена манджа малко" :)


https://www.youtube.com/watch?v=06sRF-fCVZY

MARKO VANILLA feat. SANDRA AFRIKA - 300 CUDA

интро
4/
E------------------
B------------------
G---44-----44----
D-7-----7---------
A------------------
E-------------------

E-----------------------
B-2-h3p2-----------
G---------------4-2-2s4
D------------------------
A------------------------
E------------------------

2/
E------------------
B------------------
G---44-----44----
D-7-----7---------
A------------------
E-------------------

2/
E-------------------------
B-5-----5-h7------------
G----7---------7-7p6---
D-----------------------7-
A-------------------------
E--------------------------

2/
E------------------
B------------------
G---44-----44----
D-7-----7---------
A------------------
E-------------------

2/
E-------------------------
B-5-----5-h7------------
G----7---------7---------
D------------------------
A-------------------------
E--------------------------

2/
E------------------
B------------------
G---44-----44----
D-7-----7---------
A------------------
E-------------------

E---------------------------
B--------------------------
G-9-7-9s11-7-6---------
D-------------------7-7s9
A--------------------------
E---------------------------


Bm                       A               
Tu si sama medju svima
Bm              A
gde je jaca polovina
Bm           A
da bi bila mirna
F#m
evo, bicu ja

Bm            A
Nije tvoja briga
Bm                   A
moj zivot, moja igra
Bm                       A
dok za nekim ne poludim
F#m
bicu nicija

G-6h7p6-4-6h7p6-4-4s6

G
Sta je tajna tvoja
F#m
da bi bila moja
G                        A
to na usne sapni mi                                     

Refren.
Bm                   G
Nemam decka ni problema
A                             Bm
nikom veza, nikom sema
Bm                      G
stanje nece da se menja
A                        Bm
ni da imas vek strpljenja

Bm                             G
Nemas decka, to me lozi
A                        Bm
vatra je u mojoj kozi
Bm                              A
veruj, bices za mnom luda
G                      A Bm
izmislicu trista cuda

Ma gde si do sad krila
usne slatke k'o vanila
sto bi sama bila
vidis, tu sam ja

Gresis da sam laka
izgled moj je nekad varka
dok za nekim ne poludim
bicu nicija

Refren.
Nemam decka ni problema
nikom veza, nikom sema
stanje nece da se menja
ni da imas vek strpljenja

Nemas decka, to me lozi
vatra je u mojoj kozi
veruj, bices za mnom luda
izmislicu trista cuda

Refren.
Nemam decka ni problema
nikom veza, nikom sema
stanje nece da se menja
ni da imas vek strpljenja

Nemas decka, to me lozi
vatra je u mojoj kozi
veruj, bices za mnom luda
izmislicu trista cuda


Песента за днес ще е MARKO VANILLA feat. SANDRA AFRIKA - 300 CUDA още я дооправям предполагам, че до 14,00ч. българско време днес ще я кача приятен ден от мен. :)
Ако не сте я чували ето я.



вторник, 17 март 2015 г.

Здравейте и добър ден дано е бил успешен и за вас както бе за мен, та песента за днес е сръбска отново и е с участието на една група от дами, на която съм качил вече две песни. Този път компания им прави Severina и така представям ви моята трактовка за  Uno momento на Severina  със специалното участие на Ministarke. :)



SEVERINA FEAT. MINISTARKE-Uno momento


https://www.youtube.com/watch?v=Gvchbkh4jQY
интро
3/
E---------------------
B---------------------
G-7---7--99--99-99                                                              
D---9-----------------
A---------------------
E----------------------

E------------------
B--8----10--8----
G-----9---------9
D------------------
A------------------
E------------------

E------------
B-----8-7---
G-77------9
D------------
A------------
E------------

E-----------------------------------------
B-12-10-10-12-10-10-10b-------12---
G---------------------------------12-------12
D-----------------------------------------
A------------------------------------------
E-------------------------------------------

E-----------------------
B-----------------------
G-----------2-----4----
D-5-5-5-5-----5----5
A-----------------------
E-----------------------

E-----------------------------------------
B-12-10-10-12-10-10-10b---------12---
G----------------------------------12------12
D-----------------------------------------
A------------------------------------------
E-------------------------------------------

E-10-----------------------------------------------------------------
B-----13-p12-10-10-----12-----------------10-10-10-----12----
G-----------------------12----12-12-12-12-------------12-----12
D---------------------------------------------------------------------
A---------------------------------------------------------------------
E----------------------------------------------------------------------

2/
E--------------------5-55-3-2
B------------------------------
G-999-999-999--------------
D-------------------------------
A-------------------------------
E--------------------------------

Em              C
Mozda si ti i genije za zene..
Bm
Ali ovaj put zaboravi na mene.
Em               C
Kazu ti da si isteko pre roka..
G                                   D
U mojoj knjizi utisaka ti si slaba trojka.
Em                        C
Hajde zaboravi na to.
G                                      D
Netreba mi ljubav,meni treba lom.
Em                     C
Prastaj lutko sad sve.
G                  D
Ja reci cu ti 'NE'.

B-b8-8s10s8s10

Em                       C
Koliko pijem nije humano.
G                        D
Subota je dan za alkohol.
Em                              C
Uno momento, uspori tempo..
G                       D
možda sutra se vidimo.
E-55-5s7-3

Em                 C
Tika,taka,tika,tak
E-55-5s7-3

G                A
isteklo ti vrijeme.
Em7             
Pao si kod mene
Em                        C                                  
bas si sladak kad si ljut..
B-8-8-full8

G                        D
Vise srece drugi put.

B-10-10-10s12-10-12-10

Nisi moj tip necu da te lazem.
Trazis moj broj
zini da ti kazem..
Zeleo bi da idemo kod tebe..
Ali tamo nocas vodis samo sebe..
Hajde zaboravi na to.
Netreba mi ljubav,meni treba lom.
Prastaj lutko sad sve.
Ja reci cu ti 'NE'.

Koliko pijem nije humano
Subota je dan za alkohol.
Uno momento, uspori tempo
Možda sutra se vidimo
Tika taka tika tak
Isteklo ti vrijeme
Pao si kod mene
Bas si sladak kad si ljut
Vise srece drugi put

Koliko pijem nije humano
Subota je dan za alkohol.
Uno momento, uspori tempo
Možda sutra se vidimo
Tika taka tika tak
Isteklo ti vrijeme
Pao si kod mene
Bas si sladak kad si ljut
Vise srece drugi put

Tika,taka,tika,tak
isteklo ti vrijeme.
Pao si kod mene.
Uno momento, uspori tempo,
bas si sladak kad si ljut..
Vise srece drugi put .
Tika,taka,tika,tak.